06 settembre 2005

Impazzire su Lonnie Brooks.

Per ora questo. E' una fatica improba: il vecchio papà del blues, con la Strato per le mani, fa il bello e il cattivo tempo e stargli dietro non è proprio semplice (almeno per me).
Quindi, a mo' di forum e NG: se qualcuno riesce a correggere e andare avanti è benvenuto.

Lonnie Brooks, What My Body Needs, Deluxe Edition, Alligator, 1997.


b: bending (full)
po: pull off
/: slide

slight distorsion guitar


e----------------------------------------------------------
B------------13--15b--13--------15b--13------13b--13-------
G--10---10----------------14-------------14-----------14---
D--10---12-------------------------------------------------
A----------------------------------------------------------
E----------------------------------------------------------



e----------------------------------------------------------
B--15b--13-------------------------------------------------
G-----------14~~----------14b--16po--14/12------12---------
D-------------------------------------------14------14/12--
A----------------------------------------------------------
E----------------------------------------------------------



e------------------------------------------------------------
B------------13----------------------------------------------
G--14/12---------14/12----14--12-------------------13----15~~
D---------14-----------14---------14--12--10----------14-----
A--------------------------------------------12/14-----------
E------------------------------------------------------------