24 marzo 2006

[TAB] John Mayer - Out of my mind.

Ecco i primi 30 secondi. Questo ragazzo dai modi per bene mi sta facendo sudare parecchio.
(To be continued...)



John Mayer - Out of my mind

----------------
-|--------------------------
-----------------|-12b15--12--10------------
--------7--9b11--|-----------------11--9s7--
--7--9-----------|--------------------------
-----------------|--------------------------
-----------------|--------------------------


---------------------------------------
----------------10---------------------
--7----7--9s11------9------------------
--7p9----------------------------------
---------------------------------------
---------------------------------------


----------------10------10-------------------
----------------10------10-------------------
-------
7--9s11------11------11--9s7--9p7-----
--8s9-------------------------------------11-
---------------------------------------------
---------------------------------------------

---------------------------------------
---------------------------------------
---------------------------------------
---------------------------------------
---------------------------------------
---------------------------------------



Foto: Rolling Stone